  0
SECTION
  2
HEADER
  9
$ACADVER
  1
AC1009
  9
$INSBASE
 10
0.0
 20
0.0
 30
0.0
  9
$EXTMIN
 10
3.4565
 20
7.9705
 30
0.0
  9
$EXTMAX
 10
100.0
 20
121.9705
 30
0.0
  9
$LIMMIN
 10
0.0
 20
0.0
  9
$LIMMAX
 10
420.0
 20
297.0
  9
$ORTHOMODE
 70
     0
  9
$REGENMODE
 70
     1
  9
$FILLMODE
 70
     1
  9
$QTEXTMODE
 70
     0
  9
$MIRRTEXT
 70
     1
  9
$DRAGMODE
 70
     2
  9
$LTSCALE
 40
1.0
  9
$OSMODE
 70
     0
  9
$ATTMODE
 70
     1
  9
$TEXTSIZE
 40
3.5
  9
$TRACEWID
 40
1.0
  9
$TEXTSTYLE
  7
STANDARD
  9
$CLAYER
  8
0
  9
$CELTYPE
  6
BYLAYER
  9
$CECOLOR
 62
   256
  9
$DIMSCALE
 40
1.0
  9
$DIMASZ
 40
2.5
  9
$DIMEXO
 40
0.625
  9
$DIMDLI
 40
3.75
  9
$DIMRND
 40
0.0
  9
$DIMDLE
 40
0.0
  9
$DIMEXE
 40
1.25
  9
$DIMTP
 40
0.0
  9
$DIMTM
 40
0.0
  9
$DIMTXT
 40
2.5
  9
$DIMCEN
 40
2.5
  9
$DIMTSZ
 40
0.0
  9
$DIMTOL
 70
     0
  9
$DIMLIM
 70
     0
  9
$DIMTIH
 70
     1
  9
$DIMTOH
 70
     0
  9
$DIMSE1
 70
     0
  9
$DIMSE2
 70
     0
  9
$DIMTAD
 70
     1
  9
$DIMZIN
 70
     8
  9
$DIMBLK
  1

  9
$DIMASO
 70
     1
  9
$DIMSHO
 70
     1
  9
$DIMPOST
  1

  9
$DIMAPOST
  1

  9
$DIMALT
 70
     0
  9
$DIMALTD
 70
     2
  9
$DIMALTF
 40
0.0394
  9
$DIMLFAC
 40
1.0
  9
$DIMTOFL
 70
     1
  9
$DIMTVP
 40
1.0
  9
$DIMTIX
 70
     0
  9
$DIMSOXD
 70
     0
  9
$DIMSAH
 70
     0
  9
$DIMBLK1
  1

  9
$DIMBLK2
  1

  9
$DIMSTYLE
  2
*UNNAMED
  9
$DIMCLRD
 70
     0
  9
$DIMCLRE
 70
     0
  9
$DIMCLRT
 70
     0
  9
$DIMTFAC
 40
1.0
  9
$DIMGAP
 40
0.625
  9
$LUNITS
 70
     2
  9
$LUPREC
 70
     4
  9
$SKETCHINC
 40
1.0
  9
$FILLETRAD
 40
0.0
  9
$AUNITS
 70
     0
  9
$AUPREC
 70
     0
  9
$MENU
  1
acad
  9
$ELEVATION
 40
0.0
  9
$PELEVATION
 40
0.0
  9
$THICKNESS
 40
0.0
  9
$LIMCHECK
 70
     0
  9
$BLIPMODE
 70
     1
  9
$CHAMFERA
 40
10.0
  9
$CHAMFERB
 40
10.0
  9
$SKPOLY
 70
     0
  9
$TDCREATE
 40
2451478.997207870
  9
$TDUPDATE
 40
2451478.997207870
  9
$TDINDWG
 40
0.0000000000
  9
$TDUSRTIMER
 40
0.0000000000
  9
$USRTIMER
 70
     1
  9
$ANGBASE
 50
0.0
  9
$ANGDIR
 70
     0
  9
$PDMODE
 70
     0
  9
$PDSIZE
 40
0.0
  9
$PLINEWID
 40
0.0
  9
$COORDS
 70
     1
  9
$SPLFRAME
 70
     0
  9
$SPLINETYPE
 70
     6
  9
$SPLINESEGS
 70
     8
  9
$ATTDIA
 70
     0
  9
$ATTREQ
 70
     1
  9
$HANDLING
 70
     0
  9
$HANDSEED
  5
0
  9
$SURFTAB1
 70
     6
  9
$SURFTAB2
 70
     6
  9
$SURFTYPE
 70
     6
  9
$SURFU
 70
     6
  9
$SURFV
 70
     6
  9
$UCSNAME
  2

  9
$UCSORG
 10
0.0
 20
0.0
 30
0.0
  9
$UCSXDIR
 10
1.0
 20
0.0
 30
0.0
  9
$UCSYDIR
 10
0.0
 20
1.0
 30
0.0
  9
$PUCSNAME
  2

  9
$PUCSORG
 10
0.0
 20
0.0
 30
0.0
  9
$PUCSXDIR
 10
1.0
 20
0.0
 30
0.0
  9
$PUCSYDIR
 10
0.0
 20
1.0
 30
0.0
  9
$USERI1
 70
     0
  9
$USERI2
 70
     0
  9
$USERI3
 70
     0
  9
$USERI4
 70
     0
  9
$USERI5
 70
     0
  9
$USERR1
 40
1.0
  9
$USERR2
 40
0.0
  9
$USERR3
 40
0.0
  9
$USERR4
 40
0.0
  9
$USERR5
 40
0.0
  9
$WORLDVIEW
 70
     1
  9
$SHADEDGE
 70
     3
  9
$SHADEDIF
 70
    70
  9
$TILEMODE
 70
     1
  9
$MAXACTVP
 70
    16
  9
$PINSBASE
 10
0.0
 20
0.0
 30
0.0
  9
$PLIMCHECK
 70
     0
  9
$PEXTMIN
 10
1.000000E+20
 20
1.000000E+20
 30
1.000000E+20
  9
$PEXTMAX
 10
-1.000000E+20
 20
-1.000000E+20
 30
-1.000000E+20
  9
$PLIMMIN
 10
0.0
 20
0.0
  9
$PLIMMAX
 10
420.0
 20
297.0
  9
$UNITMODE
 70
     0
  9
$VISRETAIN
 70
     0
  9
$PLINEGEN
 70
     0
  9
$PSLTSCALE
 70
     1
  9
$TREEDEPTH
 70
  3020
  9
$DWGCODEPAGE
  3
dos932
  0
ENDSEC
  0
SECTION
  2
TABLES
  0
TABLE
  2
VPORT
 70
     3
  0
VPORT
  2
*ACTIVE
 70
     0
 10
0.0
 20
0.0
 11
1.0
 21
1.0
 12
115.795301
 22
65.184593
 13
0.0
 23
0.0
 14
10.0
 24
10.0
 15
10.0
 25
10.0
 16
0.0
 26
0.0
 36
1.0
 17
0.0
 27
0.0
 37
0.0
 40
122.598837
 41
1.83965
 42
50.0
 43
0.0
 44
0.0
 50
0.0
 51
0.0
 71
     0
 72
   100
 73
     1
 74
     0
 75
     0
 76
     0
 77
     0
 78
     0
  0
ENDTAB
  0
TABLE
  2
LTYPE
 70
    10
  0
LTYPE
  2
CONTINUOUS
 70
    64
  3
Solid line
 72
    65
 73
     0
 40
0.0
  0
LTYPE
  2
DASHED
 70
    64
  3
__ __ __ __ __ __ __ __ __ __ __ __ __ __ __
 72
    65
 73
     2
 40
0.75
 49
0.5
 49
-0.25
  0
LTYPE
  2
DOT
 70
    64
  3
...............................................
 72
    65
 73
     2
 40
0.25
 49
0.0
 49
-0.25
  0
LTYPE
  2
DASHDOT
 70
    64
  3
__ . __ . __ . __ . __ . __ . __ . __ . __ . --
 72
    65
 73
     4
 40
1.0
 49
0.5
 49
-0.25
 49
0.0
 49
-0.25
  0
LTYPE
  2
CENTER
 70
    64
  3
____ _ ____ _ ____ _ ____ _ ____ _ ____ _ ____
 72
    65
 73
     4
 40
2.0
 49
1.25
 49
-0.25
 49
0.25
 49
-0.25
  0
LTYPE
  2
PHANTOM
 70
    64
  3
_____ _ _ _____ _ _ _____ _ _ _____ _ _ ____
 72
    65
 73
     6
 40
2.5
 49
1.25
 49
-0.25
 49
0.25
 49
-0.25
 49
0.25
 49
-0.25
  0
LTYPE
  2
HIDDEN
 70
    64
  3
_ _ _ _ _ _ _ _ _ _ _ _ _ _ _ _ _ _ _ _ _ _ _
 72
    65
 73
     2
 40
0.375
 49
0.25
 49
-0.125
  0
LTYPE
  2
BORDER
 70
    64
  3
__ __ . __ __ . __ __ . __ __ . __ __ . __ __
 72
    65
 73
     6
 40
1.75
 49
0.5
 49
-0.25
 49
0.5
 49
-0.25
 49
0.0
 49
-0.25
  0
LTYPE
  2
DIVIDE
 70
    64
  3
__ . . __ . . __ . . __ . . __ . . __ . . __
 72
    65
 73
     6
 40
1.25
 49
0.5
 49
-0.25
 49
0.0
 49
-0.25
 49
0.0
 49
-0.25
  0
LTYPE
  2
DOT2
 70
    64
  3
...............................................
 72
    65
 73
     2
 40
0.125
 49
0.0
 49
-0.125
  0
ENDTAB
  0
TABLE
  2
LAYER
 70
    14
  0
LAYER
  2
0
 70
     0
 62
     7
  6
CONTINUOUS
  0
LAYER
  2
1
 70
    64
 62
     7
  6
CONTINUOUS
  0
LAYER
  2
JISSEN
 70
    64
 62
     6
  6
CONTINUOUS
  0
LAYER
  2
HASEN
 70
    64
 62
     4
  6
HIDDEN
  0
LAYER
  2
ITTEN
 70
    64
 62
     1
  6
CENTER
  0
LAYER
  2
NITEN
 70
    64
 62
     2
  6
PHANTOM
  0
LAYER
  2
HATCH
 70
    64
 62
     3
  6
BORDER
  0
LAYER
  2
SUNPOU
 70
    64
 62
     3
  6
CONTINUOUS
  0
LAYER
  2
TEXT
 70
    64
 62
     3
  6
CONTINUOUS
  0
LAYER
  2
SAISEN
 70
    64
 62
     4
  6
CONTINUOUS
  0
LAYER
  2
HOJO
 70
    64
 62
     1
  6
DOT
  0
LAYER
  2
TENSEN
 70
    64
 62
     2
  6
DOT
  0
LAYER
  2
HOJOORG
 70
    64
 62
     5
  6
DOT2
  0
LAYER
  2
WAKU
 70
    64
 62
     1
  6
CONTINUOUS
  0
ENDTAB
  0
TABLE
  2
STYLE
 70
     1
  0
STYLE
  2
STANDARD
 70
    64
 40
0.0
 41
1.0
 50
0.0
 71
     0
 42
5.0
  3
txt
  4
bigfont
  0
ENDTAB
  0
TABLE
  2
VIEW
 70
     0
  0
ENDTAB
  0
TABLE
  2
UCS
 70
     0
  0
ENDTAB
  0
TABLE
  2
APPID
 70
     1
  0
APPID
  2
ACAD
 70
    64
  0
ENDTAB
  0
TABLE
  2
DIMSTYLE
 70
     0
  0
ENDTAB
  0
ENDSEC
  0
SECTION
  2
BLOCKS
  0
ENDSEC
  0
SECTION
  2
ENTITIES
  0
TEXT
  8
1
 62
     9
 10
55.6565
 20
117.9705
 30
0.0
 40
4.0
  1
11
 41
0.825
 72
     2
 11
58.9565
 21
117.9705
 31
0.0
  0
TEXT
  8
1
 62
     9
 10
56.7565
 20
97.9705
 30
0.0
 40
4.0
  1
9
 41
0.825
 72
     2
 11
58.9565
 21
97.9705
 31
0.0
  0
TEXT
  8
1
 62
     9
 10
55.1065
 20
107.9705
 30
0.0
 40
4.0
  1
10
 41
0.825
 72
     2
 11
58.9565
 21
107.9705
 31
0.0
  0
LINE
  8
1
  6
CONTINUOUS
 62
     2
 10
60.0
 20
100.0
 30
0.0
 11
100.0
 21
100.0
 31
0.0
  0
LINE
  8
1
  6
CONTINUOUS
 62
     4
 10
60.0
 20
110.0
 30
0.0
 11
100.0
 21
110.0
 31
0.0
  0
LINE
  8
1
  6
CONTINUOUS
 62
     3
 10
60.0
 20
120.0
 30
0.0
 11
100.0
 21
120.0
 31
0.0
  0
LINE
  8
1
  6
CONTINUOUS
 62
     8
 10
60.0
 20
70.0
 30
0.0
 11
100.0
 21
70.0
 31
0.0
  0
LINE
  8
1
  6
CONTINUOUS
 62
    10
 10
60.0
 20
80.0
 30
0.0
 11
100.0
 21
80.0
 31
0.0
  0
LINE
  8
1
  6
CONTINUOUS
 62
     1
 10
60.0
 20
90.0
 30
0.0
 11
100.0
 21
90.0
 31
0.0
  0
TEXT
  8
1
 62
     9
 10
3.4565
 20
117.9705
 30
0.0
 40
4.0
  1
63
 41
0.825
 72
     2
 11
8.9565
 21
117.9705
 31
0.0
  0
TEXT
  8
1
 62
     9
 10
5.1065
 20
97.9705
 30
0.0
 40
4.0
  1
10
 41
0.825
 72
     2
 11
8.9565
 21
97.9705
 31
0.0
  0
TEXT
  8
1
 62
     9
 10
4.5565
 20
107.9705
 30
0.0
 40
4.0
  1
31
 41
0.825
 72
     2
 11
8.9565
 21
107.9705
 31
0.0
  0
POINT
  8
1
  6
CONTINUOUS
 62
     5
 10
50.0
 20
120.0
 30
0.0
  0
POINT
  8
1
  6
CONTINUOUS
 62
     5
 10
10.0
 20
120.0
 30
0.0
  0
POINT
  8
1
  6
CONTINUOUS
 62
     5
 10
50.0
 20
110.0
 30
0.0
  0
POINT
  8
1
  6
CONTINUOUS
 62
     5
 10
10.0
 20
110.0
 30
0.0
  0
LINE
  8
1
  6
DIVIDE
 62
     5
 10
10.0
 20
100.0
 30
0.0
 11
50.0
 21
100.0
 31
0.0
  0
TEXT
  8
1
 62
     9
 10
6.7565
 20
87.9705
 30
0.0
 40
4.0
  1
8
 41
0.825
 72
     2
 11
8.9565
 21
87.9705
 31
0.0
  0
TEXT
  8
1
 62
     9
 10
6.7565
 20
67.9705
 30
0.0
 40
4.0
  1
6
 41
0.825
 72
     2
 11
8.9565
 21
67.9705
 31
0.0
  0
TEXT
  8
1
 62
     9
 10
6.7565
 20
77.9705
 30
0.0
 40
4.0
  1
7
 41
0.825
 72
     2
 11
8.9565
 21
77.9705
 31
0.0
  0
LINE
  8
1
  6
DOT2
 62
     5
 10
10.0
 20
90.0
 30
0.0
 11
50.0
 21
90.0
 31
0.0
  0
LINE
  8
1
  6
DOT2
 62
     5
 10
10.0
 20
80.0
 30
0.0
 11
50.0
 21
80.0
 31
0.0
  0
LINE
  8
1
  6
DASHED
 62
     5
 10
10.0
 20
70.0
 30
0.0
 11
50.0
 21
70.0
 31
0.0
  0
LINE
  8
1
  6
CONTINUOUS
 62
     9
 10
60.0
 20
40.0
 30
0.0
 11
100.0
 21
40.0
 31
0.0
  0
LINE
  8
1
  6
CONTINUOUS
 62
     6
 10
60.0
 20
50.0
 30
0.0
 11
100.0
 21
50.0
 31
0.0
  0
LINE
  8
1
  6
CONTINUOUS
 62
    10
 10
60.0
 20
60.0
 30
0.0
 11
100.0
 21
60.0
 31
0.0
  0
LINE
  8
1
  6
CONTINUOUS
 62
     0
 10
60.0
 20
10.0
 30
0.0
 11
100.0
 21
10.0
 31
0.0
  0
LINE
  8
1
  6
CONTINUOUS
 62
     5
 10
60.0
 20
20.0
 30
0.0
 11
100.0
 21
20.0
 31
0.0
  0
LINE
  8
1
  6
CONTINUOUS
 62
    11
 10
60.0
 20
30.0
 30
0.0
 11
100.0
 21
30.0
 31
0.0
  0
TEXT
  8
1
 62
     9
 10
6.7565
 20
57.9705
 30
0.0
 40
4.0
  1
5
 41
0.825
 72
     2
 11
8.9565
 21
57.9705
 31
0.0
  0
TEXT
  8
1
 62
     9
 10
6.7565
 20
37.9705
 30
0.0
 40
4.0
  1
3
 41
0.825
 72
     2
 11
8.9565
 21
37.9705
 31
0.0
  0
TEXT
  8
1
 62
     9
 10
6.7565
 20
47.9705
 30
0.0
 40
4.0
  1
4
 41
0.825
 72
     2
 11
8.9565
 21
47.9705
 31
0.0
  0
LINE
  8
1
  6
CENTER
 62
     5
 10
10.0
 20
60.0
 30
0.0
 11
50.0
 21
60.0
 31
0.0
  0
LINE
  8
1
  6
DASHDOT
 62
     5
 10
10.0
 20
50.0
 30
0.0
 11
50.0
 21
50.0
 31
0.0
  0
LINE
  8
1
  6
DOT
 62
     5
 10
10.0
 20
40.0
 30
0.0
 11
50.0
 21
40.0
 31
0.0
  0
TEXT
  8
1
 62
     9
 10
6.7565
 20
27.9705
 30
0.0
 40
4.0
  1
2
 41
0.825
 72
     2
 11
8.9565
 21
27.9705
 31
0.0
  0
TEXT
  8
1
 62
     9
 10
7.3065
 20
7.9705
 30
0.0
 40
4.0
  1
0
 41
0.825
 72
     2
 11
8.9565
 21
7.9705
 31
0.0
  0
TEXT
  8
1
 62
     9
 10
7.8565
 20
17.9705
 30
0.0
 40
4.0
  1
1
 41
0.825
 72
     2
 11
8.9565
 21
17.9705
 31
0.0
  0
LINE
  8
1
  6
HIDDEN
 62
     5
 10
10.0
 20
30.0
 30
0.0
 11
50.0
 21
30.0
 31
0.0
  0
LINE
  8
1
  6
CONTINUOUS
 62
     5
 10
10.0
 20
20.0
 30
0.0
 11
50.0
 21
20.0
 31
0.0
  0
LINE
  8
1
  6
CONTINUOUS
 62
     5
 10
10.0
 20
10.0
 30
0.0
 11
50.0
 21
10.0
 31
0.0
  0
ENDSEC
  0
EOF
